  0
SECTION
  2
HEADER
  9
$ACADVER
  1
AC1015
  9
$ACADMAINTVER
 70
     6
  9
$DWGCODEPAGE
  3
ANSI_1254
  9
$INSBASE
 10
0.0
 20
0.0
 30
0.0
  9
$EXTMIN
 10
0.0
 20
0.0
 30
0.0
  9
$EXTMAX
 10
279.4
 20
215.9
 30
0.0
  9
$LIMMIN
 10
0.0
 20
0.0
  9
$LIMMAX
 10
279.4
 20
215.9
  9
$ORTHOMODE
 70
     0
  9
$REGENMODE
 70
     1
  9
$FILLMODE
 70
     1
  9
$QTEXTMODE
 70
     0
  9
$MIRRTEXT
 70
     1
  9
$LTSCALE
 40
1.0
  9
$ATTMODE
 70
     1
  9
$TEXTSIZE
 40
3.5
  9
$TRACEWID
 40
1.0
  9
$TEXTSTYLE
  7
Standard
  9
$CLAYER
  8
0
  9
$CELTYPE
  6
ByLayer
  9
$CECOLOR
 62
   256
  9
$CELTSCALE
 40
1.0
  9
$DISPSILH
 70
     0
  9
$DIMSCALE
 40
1.0
  9
$DIMASZ
 40
3.5
  9
$DIMEXO
 40
1.0
  9
$DIMDLI
 40
3.75
  9
$DIMRND
 40
0.0
  9
$DIMDLE
 40
0.0
  9
$DIMEXE
 40
1.0
  9
$DIMTP
 40
0.0
  9
$DIMTM
 40
0.0
  9
$DIMTXT
 40
3.5
  9
$DIMCEN
 40
2.5
  9
$DIMTSZ
 40
0.0
  9
$DIMTOL
 70
     0
  9
$DIMLIM
 70
     0
  9
$DIMTIH
 70
     1
  9
$DIMTOH
 70
     1
  9
$DIMSE1
 70
     0
  9
$DIMSE2
 70
     0
  9
$DIMTAD
 70
     1
  9
$DIMZIN
 70
     0
  9
$DIMBLK
  1

  9
$DIMASO
 70
     1
  9
$DIMSHO
 70
     1
  9
$DIMPOST
  1

  9
$DIMAPOST
  1

  9
$DIMALT
 70
     0
  9
$DIMALTD
 70
     3
  9
$DIMALTF
 40
0.0393700787
  9
$DIMLFAC
 40
1.0
  9
$DIMTOFL
 70
     1
  9
$DIMTVP
 40
0.0
  9
$DIMTIX
 70
     0
  9
$DIMSOXD
 70
     0
  9
$DIMSAH
 70
     0
  9
$DIMBLK1
  1

  9
$DIMBLK2
  1

  9
$DIMSTYLE
  2
ISO-25
  9
$DIMCLRD
 70
     0
  9
$DIMCLRE
 70
     0
  9
$DIMCLRT
 70
     0
  9
$DIMTFAC
 40
1.0
  9
$DIMGAP
 40
1.524
  9
$DIMJUST
 70
     0
  9
$DIMSD1
 70
     0
  9
$DIMSD2
 70
     0
  9
$DIMTOLJ
 70
     0
  9
$DIMTZIN
 70
     0
  9
$DIMALTZ
 70
     0
  9
$DIMALTTZ
 70
     0
  9
$DIMUPT
 70
     0
  9
$DIMDEC
 70
     2
  9
$DIMTDEC
 70
     2
  9
$DIMALTU
 70
     2
  9
$DIMALTTD
 70
     3
  9
$DIMTXSTY
  7
Standard
  9
$DIMAUNIT
 70
     0
  9
$DIMADEC
 70
     2
  9
$DIMALTRND
 40
0.0
  9
$DIMAZIN
 70
     0
  9
$DIMDSEP
 70
    44
  9
$DIMATFIT
 70
     3
  9
$DIMFRAC
 70
     0
  9
$DIMLDRBLK
  1

  9
$DIMLUNIT
 70
     2
  9
$DIMLWD
 70
    -2
  9
$DIMLWE
 70
    -2
  9
$DIMTMOVE
 70
     0
  9
$LUNITS
 70
     2
  9
$LUPREC
 70
     2
  9
$SKETCHINC
 40
1.0
  9
$FILLETRAD
 40
10.0
  9
$AUNITS
 70
     0
  9
$AUPREC
 70
     2
  9
$MENU
  1
.
  9
$ELEVATION
 40
0.0
  9
$PELEVATION
 40
0.0
  9
$THICKNESS
 40
0.0
  9
$LIMCHECK
 70
     0
  9
$CHAMFERA
 40
0.0
  9
$CHAMFERB
 40
0.0
  9
$CHAMFERC
 40
0.0
  9
$CHAMFERD
 40
0.0
  9
$SKPOLY
 70
     0
  9
$TDCREATE
 40
2458985.636245011
  9
$TDUCREATE
 40
2458985.511245011
  9
$TDUPDATE
 40
2458985.636245266
  9
$TDUUPDATE
 40
2458985.511245266
  9
$TDINDWG
 40
0.0000000116
  9
$TDUSRTIMER
 40
0.0000000116
  9
$USRTIMER
 70
     1
  9
$ANGBASE
 50
0.0
  9
$ANGDIR
 70
     0
  9
$PDMODE
 70
     0
  9
$PDSIZE
 40
-1.0
  9
$PLINEWID
 40
0.0
  9
$SPLFRAME
 70
     0
  9
$SPLINETYPE
 70
     6
  9
$SPLINESEGS
 70
     8
  9
$HANDSEED
  5
CC
  9
$SURFTAB1
 70
     6
  9
$SURFTAB2
 70
     6
  9
$SURFTYPE
 70
     6
  9
$SURFU
 70
     6
  9
$SURFV
 70
     6
  9
$UCSBASE
  2

  9
$UCSNAME
  2

  9
$UCSORG
 10
0.0
 20
0.0
 30
0.0
  9
$UCSXDIR
 10
1.0
 20
0.0
 30
0.0
  9
$UCSYDIR
 10
0.0
 20
1.0
 30
0.0
  9
$UCSORTHOREF
  2

  9
$UCSORTHOVIEW
 70
     0
  9
$UCSORGTOP
 10
0.0
 20
0.0
 30
0.0
  9
$UCSORGBOTTOM
 10
0.0
 20
0.0
 30
0.0
  9
$UCSORGLEFT
 10
0.0
 20
0.0
 30
0.0
  9
$UCSORGRIGHT
 10
0.0
 20
0.0
 30
0.0
  9
$UCSORGFRONT
 10
0.0
 20
0.0
 30
0.0
  9
$UCSORGBACK
 10
0.0
 20
0.0
 30
0.0
  9
$PUCSBASE
  2

  9
$PUCSNAME
  2

  9
$PUCSORG
 10
0.0
 20
0.0
 30
0.0
  9
$PUCSXDIR
 10
1.0
 20
0.0
 30
0.0
  9
$PUCSYDIR
 10
0.0
 20
1.0
 30
0.0
  9
$PUCSORTHOREF
  2

  9
$PUCSORTHOVIEW
 70
     0
  9
$PUCSORGTOP
 10
0.0
 20
0.0
 30
0.0
  9
$PUCSORGBOTTOM
 10
0.0
 20
0.0
 30
0.0
  9
$PUCSORGLEFT
 10
0.0
 20
0.0
 30
0.0
  9
$PUCSORGRIGHT
 10
0.0
 20
0.0
 30
0.0
  9
$PUCSORGFRONT
 10
0.0
 20
0.0
 30
0.0
  9
$PUCSORGBACK
 10
0.0
 20
0.0
 30
0.0
  9
$USERI1
 70
     0
  9
$USERI2
 70
     0
  9
$USERI3
 70
     0
  9
$USERI4
 70
     0
  9
$USERI5
 70
     0
  9
$USERR1
 40
0.0
  9
$USERR2
 40
0.0
  9
$USERR3
 40
0.0
  9
$USERR4
 40
0.0
  9
$USERR5
 40
0.0
  9
$WORLDVIEW
 70
     1
  9
$SHADEDGE
 70
     3
  9
$SHADEDIF
 70
    70
  9
$TILEMODE
 70
     1
  9
$MAXACTVP
 70
    64
  9
$PINSBASE
 10
0.0
 20
0.0
 30
0.0
  9
$PLIMCHECK
 70
     0
  9
$PEXTMIN
 10
1.0000000000E+20
 20
1.0000000000E+20
 30
1.0000000000E+20
  9
$PEXTMAX
 10
-1.0000000000E+20
 20
-1.0000000000E+20
 30
-1.0000000000E+20
  9
$PLIMMIN
 10
0.0
 20
0.0
  9
$PLIMMAX
 10
420.0
 20
297.0
  9
$UNITMODE
 70
     0
  9
$VISRETAIN
 70
     1
  9
$PLINEGEN
 70
     0
  9
$PSLTSCALE
 70
     1
  9
$TREEDEPTH
 70
  3020
  9
$CMLSTYLE
  2
Standard
  9
$CMLJUST
 70
     0
  9
$CMLSCALE
 40
20.0
  9
$PROXYGRAPHICS
 70
     1
  9
$MEASUREMENT
 70
     1
  9
$CELWEIGHT
370
    -1
  9
$ENDCAPS
280
     0
  9
$JOINSTYLE
280
     0
  9
$LWDISPLAY
290
     1
  9
$INSUNITS
 70
     4
  9
$HYPERLINKBASE
  1

  9
$STYLESHEET
  1

  9
$XEDIT
290
     1
  9
$CEPSNTYPE
380
     0
  9
$PSTYLEMODE
290
     1
  9
$FINGERPRINTGUID
  2
{f78c3639-c6d7-496f-b7da-734a7ca56dd1}
  9
$VERSIONGUID
  2
{FAEB1C32-E019-11D5-929B-00C0DF256EC4}
  9
$EXTNAMES
290
     1
  9
$PSVPSCALE
 40
0.0
  9
$OLESTARTUP
290
     0
  0
ENDSEC
  0
SECTION
  2
CLASSES
  0
CLASS
  1
ACDBDICTIONARYWDFLT
  2
AcDbDictionaryWithDefault
  3
ObjectDBX Classes
 90
        0
280
     0
281
     0
  0
CLASS
  1
VISUALSTYLE
  2
AcDbVisualStyle
  3
ObjectDBX Classes
 90
     4095
280
     0
281
     0
  0
CLASS
  1
MATERIAL
  2
AcDbMaterial
  3
ObjectDBX Classes
 90
     1153
280
     0
281
     0
  0
CLASS
  1
SCALE
  2
AcDbScale
  3
ObjectDBX Classes
 90
     1153
280
     0
281
     0
  0
CLASS
  1
TABLESTYLE
  2
AcDbTableStyle
  3
ObjectDBX Classes
 90
     4095
280
     0
281
     0
  0
CLASS
  1
MLEADERSTYLE
  2
AcDbMLeaderStyle
  3
ACDB_MLEADERSTYLE_CLASS
 90
     4095
280
     0
281
     0
  0
CLASS
  1
SUN
  2
AcDbSun
  3
SCENEOE
 90
     1153
280
     0
281
     0
  0
CLASS
  1
ACDBPLACEHOLDER
  2
AcDbPlaceHolder
  3
ObjectDBX Classes
 90
        0
280
     0
281
     0
  0
CLASS
  1
LAYOUT
  2
AcDbLayout
  3
ObjectDBX Classes
 90
        0
280
     0
281
     0
  0
ENDSEC
  0
SECTION
  2
TABLES
  0
TABLE
  2
VPORT
  5
8
330
0
100
AcDbSymbolTable
 70
     1
  0
VPORT
  5
29
330
8
100
AcDbSymbolTableRecord
100
AcDbViewportTableRecord
  2
*Active
 70
     0
 10
0.0
 20
0.0
 11
1.0
 21
1.0
 12
139.7
 22
107.95
 13
0.0
 23
0.0
 14
10.0
 24
10.0
 15
10.0
 25
10.0
 16
0.0
 26
0.0
 36
1.0
 17
0.0
 27
0.0
 37
0.0
 40
215.9
 41
1.2941176471
 42
50.0
 43
0.0
 44
0.0
 50
0.0
 51
0.0
 71
     0
 72
  2000
 73
     1
 74
     3
 75
     0
 76
     0
 77
     0
 78
     0
281
     0
 65
     1
110
0.0
120
0.0
130
0.0
111
1.0
121
0.0
131
0.0
112
0.0
122
1.0
132
0.0
 79
     0
146
0.0
  0
ENDTAB
  0
TABLE
  2
LTYPE
  5
5
330
0
100
AcDbSymbolTable
 70
     6
  0
LTYPE
  5
14
330
5
100
AcDbSymbolTableRecord
100
AcDbLinetypeTableRecord
  2
ByBlock
 70
     0
  3

 72
    65
 73
     0
 40
0.0
  0
LTYPE
  5
15
330
5
100
AcDbSymbolTableRecord
100
AcDbLinetypeTableRecord
  2
ByLayer
 70
     0
  3

 72
    65
 73
     0
 40
0.0
  0
LTYPE
  5
16
330
5
100
AcDbSymbolTableRecord
100
AcDbLinetypeTableRecord
  2
Continuous
 70
     0
  3
Solid line
 72
    65
 73
     0
 40
0.0
  0
LTYPE
  5
6E
330
5
100
AcDbSymbolTableRecord
100
AcDbLinetypeTableRecord
  2
HIDDEN
 70
     0
  3
Hidden __ __ __ __ __ __ __ __ __ __ __ __ __ __
 72
    65
 73
     2
 40
1.905
 49
1.27
 74
     0
 49
-0.635
 74
     0
  0
LTYPE
  5
6F
330
5
100
AcDbSymbolTableRecord
100
AcDbLinetypeTableRecord
  2
PHANTOM
 70
     0
  3
Phantom ______  __  __  ______  __  __  ______
 72
    65
 73
     6
 40
12.7
 49
6.35
 74
     0
 49
-1.27
 74
     0
 49
1.27
 74
     0
 49
-1.27
 74
     0
 49
1.27
 74
     0
 49
-1.27
 74
     0
  0
LTYPE
  5
70
330
5
100
AcDbSymbolTableRecord
100
AcDbLinetypeTableRecord
  2
CENTER
 70
     0
  3
Center ____ _ ____ _ ____ _ ____ _ ____ _ ____
 72
    65
 73
     4
 40
10.16
 49
6.35
 74
     0
 49
-1.27
 74
     0
 49
1.27
 74
     0
 49
-1.27
 74
     0
  0
LTYPE
  5
71
330
5
100
AcDbSymbolTableRecord
100
AcDbLinetypeTableRecord
  2
CENTERX2
 70
     0
  3
Center (2x) ________  __  ________  __  _____
 72
    65
 73
     4
 40
20.32
 49
12.7
 74
     0
 49
-2.54
 74
     0
 49
2.54
 74
     0
 49
-2.54
 74
     0
  0
LTYPE
  5
72
330
5
100
AcDbSymbolTableRecord
100
AcDbLinetypeTableRecord
  2
DOT2
 70
     0
  3
Dot (.5x) ........................................
 72
    65
 73
     2
 40
0.635
 49
0.0
 74
     0
 49
-0.635
 74
     0
  0
ENDTAB
  0
TABLE
  2
LAYER
  5
2
330
0
100
AcDbSymbolTable
 70
    17
  0
LAYER
  5
10
330
2
100
AcDbSymbolTableRecord
100
AcDbLayerTableRecord
  2
0
 70
     0
 62
     7
  6
Continuous
370
    -3
390
F
  0
LAYER
  5
73
330
2
100
AcDbSymbolTableRecord
100
AcDbLayerTableRecord
  2
FORMAT
 70
     0
 62
     7
  6
Continuous
370
    -3
390
F
  0
LAYER
  5
74
330
2
100
AcDbSymbolTableRecord
100
AcDbLayerTableRecord
  2
YARDIMCI_GEOMETRI
 70
     0
 62
    -6
  6
Continuous
290
     0
370
    -3
390
F
  0
LAYER
  5
75
330
2
100
AcDbSymbolTableRecord
100
AcDbLayerTableRecord
  2
SAYFA_CERCEVESI
 70
     0
 62
     7
  6
Continuous
370
    25
390
F
  0
LAYER
  5
76
330
2
100
AcDbSymbolTableRecord
100
AcDbLayerTableRecord
  2
ANTET
 70
     0
 62
     7
  6
Continuous
370
    -3
390
F
  0
LAYER
  5
77
330
2
100
AcDbSymbolTableRecord
100
AcDbLayerTableRecord
  2
OLCU
 70
     0
 62
   150
  6
Continuous
370
    -3
390
F
  0
LAYER
  5
78
330
2
100
AcDbSymbolTableRecord
100
AcDbLayerTableRecord
  2
METIN
 70
     0
 62
    96
  6
Continuous
370
    -3
390
F
  0
LAYER
  5
79
330
2
100
AcDbSymbolTableRecord
100
AcDbLayerTableRecord
  2
BALON
 70
     0
 62
     5
  6
Continuous
370
    -3
390
F
  0
LAYER
  5
7A
330
2
100
AcDbSymbolTableRecord
100
AcDbLayerTableRecord
  2
VURGU
 70
     0
 62
     7
  6
Continuous
370
    -3
390
F
  0
LAYER
  5
7B
330
2
100
AcDbSymbolTableRecord
100
AcDbLayerTableRecord
  2
SILIK
 70
     0
 62
     7
  6
Continuous
370
    -3
390
F
  0
LAYER
  5
7C
330
2
100
AcDbSymbolTableRecord
100
AcDbLayerTableRecord
  2
MODEL
 70
     0
 62
     7
  6
Continuous
370
    -3
390
F
  0
LAYER
  5
7D
330
2
100
AcDbSymbolTableRecord
100
AcDbLayerTableRecord
  2
DETAYLANDıRMA
 70
     0
 62
   190
  6
Continuous
370
    -3
390
F
  0
LAYER
  5
7E
330
2
100
AcDbSymbolTableRecord
100
AcDbLayerTableRecord
  2
TOLERANS
 70
     0
 62
   230
  6
Continuous
370
    -3
390
F
  0
LAYER
  5
7F
330
2
100
AcDbSymbolTableRecord
100
AcDbLayerTableRecord
  2
MERKEZ_CIZGILERI
 70
     0
 62
    30
  6
Continuous
370
    -3
390
F
  0
LAYER
  5
80
330
2
100
AcDbSymbolTableRecord
100
AcDbLayerTableRecord
  2
KESIT-DETAY_CIZGILERI
 70
     0
 62
     7
  6
Continuous
370
    -3
390
F
  0
LAYER
  5
81
330
2
100
AcDbSymbolTableRecord
100
AcDbLayerTableRecord
  2
\U+041E\U+0421\U+0415\U+0412\U+042B\U+0415
 70
     0
 62
     7
  6
Continuous
370
    -3
390
F
  0
LAYER
  5
82
330
2
100
AcDbSymbolTableRecord
100
AcDbLayerTableRecord
  2
\U+0412\U+041E\U+0414\U+042F\U+041D\U+042B\U+0415_\U+0417\U+041D\U+0410\U+041A\U+0418
 70
     0
 62
    11
  6
Continuous
370
    -3
390
F
  0
ENDTAB
  0
TABLE
  2
STYLE
  5
3
330
0
100
AcDbSymbolTable
 70
     1
  0
STYLE
  5
11
330
3
100
AcDbSymbolTableRecord
100
AcDbTextStyleTableRecord
  2
Standard
 70
     0
 40
0.0
 41
1.0
 50
0.0
 71
     0
 42
3.5
  3
txt
  4

  0
ENDTAB
  0
TABLE
  2
VIEW
  5
6
330
0
100
AcDbSymbolTable
 70
     0
  0
ENDTAB
  0
TABLE
  2
UCS
  5
7
330
0
100
AcDbSymbolTable
 70
     0
  0
ENDTAB
  0
TABLE
  2
APPID
  5
9
330
0
100
AcDbSymbolTable
 70
     1
  0
APPID
  5
12
330
9
100
AcDbSymbolTableRecord
100
AcDbRegAppTableRecord
  2
ACAD
 70
     0
  0
ENDTAB
  0
TABLE
  2
DIMSTYLE
  5
A
330
0
100
AcDbSymbolTable
 70
     1
100
AcDbDimStyleTable
  0
DIMSTYLE
105
27
330
A
100
AcDbSymbolTableRecord
100
AcDbDimStyleTableRecord
  2
ISO-25
 70
     0
 41
2.5
 42
0.625
 43
3.75
 44
1.25
 73
     0
 74
     0
 77
     1
 78
     8
140
2.5
141
2.5
143
0.0393700787
147
0.625
171
     3
172
     1
178
     0
271
     2
272
     2
274
     3
278
    44
283
     0
284
     8
340
11
  0
ENDTAB
  0
TABLE
  2
BLOCK_RECORD
  5
1
330
0
100
AcDbSymbolTable
 70
     2
  0
BLOCK_RECORD
  5
1F
330
1
100
AcDbSymbolTableRecord
100
AcDbBlockTableRecord
  2
*Model_Space
340
22
  0
BLOCK_RECORD
  5
1B
330
1
100
AcDbSymbolTableRecord
100
AcDbBlockTableRecord
  2
*Paper_Space
340
1E
  0
BLOCK_RECORD
  5
23
330
1
100
AcDbSymbolTableRecord
100
AcDbBlockTableRecord
  2
*Paper_Space0
340
26
  0
BLOCK_RECORD
  5
87
330
1
100
AcDbSymbolTableRecord
100
AcDbBlockTableRecord
  2
SW_CENTERMARKSYMBOL_0
340
0
102
{BLKREFS
331
92
102
}
  0
ENDTAB
  0
ENDSEC
  0
SECTION
  2
BLOCKS
  0
BLOCK
  5
20
330
1F
100
AcDbEntity
  8
0
100
AcDbBlockBegin
  2
*Model_Space
 70
     0
 10
0.0
 20
0.0
 30
0.0
  3
*Model_Space
  1

  0
ENDBLK
  5
21
330
1F
100
AcDbEntity
  8
0
100
AcDbBlockEnd
  0
BLOCK
  5
1C
330
1B
100
AcDbEntity
 67
     1
  8
0
100
AcDbBlockBegin
  2
*Paper_Space
 70
     0
 10
0.0
 20
0.0
 30
0.0
  3
*Paper_Space
  1

  0
ENDBLK
  5
1D
330
1B
100
AcDbEntity
 67
     1
  8
0
100
AcDbBlockEnd
  0
BLOCK
  5
24
330
23
100
AcDbEntity
  8
0
100
AcDbBlockBegin
  2
*Paper_Space0
 70
     0
 10
0.0
 20
0.0
 30
0.0
  3
*Paper_Space0
  1

  0
ENDBLK
  5
25
330
23
100
AcDbEntity
  8
0
100
AcDbBlockEnd
  0
BLOCK
  5
88
330
87
100
AcDbEntity
  8
0
100
AcDbBlockBegin
  2
SW_CENTERMARKSYMBOL_0
 70
     0
 10
0.0
 20
0.0
 30
0.0
  3
SW_CENTERMARKSYMBOL_0
  1

  0
LINE
  5
8A
330
87
100
AcDbEntity
  8
FORMAT
 62
     0
100
AcDbLine
 10
0.0
 20
0.0
 30
0.0
 11
0.0
 21
2.5
 31
0.0
  0
LINE
  5
8B
330
87
100
AcDbEntity
  8
FORMAT
 62
     0
100
AcDbLine
 10
0.0
 20
0.0
 30
0.0
 11
-2.5
 21
0.0
 31
0.0
  0
LINE
  5
8C
330
87
100
AcDbEntity
  8
FORMAT
 62
     0
100
AcDbLine
 10
0.0
 20
0.0
 30
0.0
 11
0.0
 21
-2.5
 31
0.0
  0
LINE
  5
8D
330
87
100
AcDbEntity
  8
FORMAT
 62
     0
100
AcDbLine
 10
0.0
 20
0.0
 30
0.0
 11
2.5
 21
0.0
 31
0.0
  0
LINE
  5
8E
330
87
100
AcDbEntity
  8
FORMAT
 62
     0
100
AcDbLine
 10
0.0
 20
5.0
 30
0.0
 11
0.0
 21
43.5
 31
0.0
  0
LINE
  5
8F
330
87
100
AcDbEntity
  8
FORMAT
 62
     0
100
AcDbLine
 10
-5.0
 20
0.0
 30
0.0
 11
-43.5
 21
0.0
 31
0.0
  0
LINE
  5
90
330
87
100
AcDbEntity
  8
FORMAT
 62
     0
100
AcDbLine
 10
0.0
 20
-5.0
 30
0.0
 11
0.0
 21
-43.5
 31
0.0
  0
LINE
  5
91
330
87
100
AcDbEntity
  8
FORMAT
 62
     0
100
AcDbLine
 10
5.0
 20
0.0
 30
0.0
 11
43.5
 21
0.0
 31
0.0
  0
ENDBLK
  5
89
330
87
100
AcDbEntity
  8
0
100
AcDbBlockEnd
  0
ENDSEC
  0
SECTION
  2
ENTITIES
  0
CIRCLE
  5
83
330
1F
100
AcDbEntity
  8
0
  6
Continuous
 62
     7
370
    25
100
AcDbCircle
 10
142.9934680851
 20
119.1714893617
 30
0.0
 40
24.99999999999999
  0
CIRCLE
  5
84
330
1F
100
AcDbEntity
  8
0
  6
Continuous
 62
     7
370
    25
100
AcDbCircle
 10
142.9934680851
 20
119.1714893617
 30
0.0
 40
20.39999999999998
  0
CIRCLE
  5
85
330
1F
100
AcDbEntity
  8
0
  6
Continuous
 62
     7
370
    25
100
AcDbCircle
 10
142.9934680851
 20
119.1714893617
 30
0.0
 40
31.0
  0
CIRCLE
  5
86
330
1F
100
AcDbEntity
  8
0
  6
Continuous
 62
     7
370
    25
100
AcDbCircle
 10
142.9934680851
 20
119.1714893617
 30
0.0
 40
41.0
  0
INSERT
  5
92
330
1F
100
AcDbEntity
  8
FORMAT
 62
     7
100
AcDbBlockReference
  2
SW_CENTERMARKSYMBOL_0
 10
142.9934680851
 20
119.1714893617
 30
0.0
  0
LINE
  5
93
330
1F
100
AcDbEntity
  8
0
  6
Continuous
 62
     7
370
    25
100
AcDbLine
 10
183.9934680851
 20
211.8538698978
 30
0.0
 11
183.9934680851
 21
223.8538698978
 31
0.0
  0
LINE
  5
94
330
1F
100
AcDbEntity
  8
0
  6
Continuous
 62
     7
370
    25
100
AcDbLine
 10
101.9934680851
 20
223.8538698978
 30
0.0
 11
101.9934680851
 21
211.8538698978
 31
0.0
  0
LINE
  5
95
330
1F
100
AcDbEntity
  8
0
  6
Continuous
 62
     7
370
    25
100
AcDbLine
 10
173.9934680851
 20
223.8538698978
 30
0.0
 11
167.9934680851
 21
240.8538698978
 31
0.0
  0
LINE
  5
96
330
1F
100
AcDbEntity
  8
0
  6
Continuous
 62
     7
370
    25
100
AcDbLine
 10
117.9934680851
 20
240.8538698978
 30
0.0
 11
111.9934680851
 21
223.8538698978
 31
0.0
  0
LINE
  5
97
330
1F
100
AcDbEntity
  8
0
  6
Continuous
 62
     7
370
    25
100
AcDbLine
 10
167.9934680851
 20
240.8538698978
 30
0.0
 11
167.9934680851
 21
303.8538698978
 31
0.0
  0
LINE
  5
98
330
1F
100
AcDbEntity
  8
0
  6
Continuous
 62
     7
370
    25
100
AcDbLine
 10
117.9934680851
 20
303.8538698978
 30
0.0
 11
117.9934680851
 21
240.8538698978
 31
0.0
  0
LINE
  5
99
330
1F
100
AcDbEntity
  8
0
  6
Continuous
 62
     7
370
    25
100
AcDbLine
 10
183.9934680851
 20
211.8538698978
 30
0.0
 11
101.9934680851
 21
211.8538698978
 31
0.0
  0
LINE
  5
9A
330
1F
100
AcDbEntity
  8
0
  6
Continuous
 62
     7
370
    25
100
AcDbLine
 10
183.9934680851
 20
223.8538698978
 30
0.0
 11
101.9934680851
 21
223.8538698978
 31
0.0
  0
LINE
  5
9B
330
1F
100
AcDbEntity
  8
0
  6
Continuous
 62
     7
370
    25
100
AcDbLine
 10
167.9934680851
 20
240.8538698978
 30
0.0
 11
117.9934680851
 21
240.8538698978
 31
0.0
  0
LINE
  5
9C
330
1F
100
AcDbEntity
  8
0
  6
Continuous
 62
     7
370
    25
100
AcDbLine
 10
167.9934680851
 20
303.8538698978
 30
0.0
 11
117.9934680851
 21
303.8538698978
 31
0.0
  0
LINE
  5
9D
330
1F
100
AcDbEntity
  8
0
  6
Continuous
 62
     7
370
    25
100
AcDbLine
 10
50.4376473382
 20
160.1714893617
 30
0.0
 11
38.4376473382
 21
160.1714893617
 31
0.0
  0
LINE
  5
9E
330
1F
100
AcDbEntity
  8
0
  6
Continuous
 62
     7
370
    25
100
AcDbLine
 10
38.4376473382
 20
78.1714893617
 30
0.0
 11
50.4376473382
 21
78.1714893617
 31
0.0
  0
LINE
  5
9F
330
1F
100
AcDbEntity
  8
0
  6
Continuous
 62
     7
370
    25
100
AcDbLine
 10
38.4376473382
 20
150.1714893617
 30
0.0
 11
21.4376473382
 21
144.1714893617
 31
0.0
  0
LINE
  5
A0
330
1F
100
AcDbEntity
  8
0
  6
Continuous
 62
     7
370
    25
100
AcDbLine
 10
21.4376473382
 20
94.1714893617
 30
0.0
 11
38.4376473382
 21
88.1714893617
 31
0.0
  0
LINE
  5
A1
330
1F
100
AcDbEntity
  8
0
  6
Continuous
 62
     7
370
    25
100
AcDbLine
 10
21.4376473382
 20
144.1714893617
 30
0.0
 11
-41.5623526618
 21
144.1714893617
 31
0.0
  0
LINE
  5
A2
330
1F
100
AcDbEntity
  8
0
  6
Continuous
 62
     7
370
    25
100
AcDbLine
 10
-41.5623526618
 20
94.1714893617
 30
0.0
 11
21.4376473382
 21
94.1714893617
 31
0.0
  0
LINE
  5
A3
330
1F
100
AcDbEntity
  8
0
  6
Continuous
 62
     7
370
    25
100
AcDbLine
 10
50.4376473382
 20
160.1714893617
 30
0.0
 11
50.4376473382
 21
78.1714893617
 31
0.0
  0
LINE
  5
A4
330
1F
100
AcDbEntity
  8
0
  6
Continuous
 62
     7
370
    25
100
AcDbLine
 10
38.4376473382
 20
160.1714893617
 30
0.0
 11
38.4376473382
 21
78.1714893617
 31
0.0
  0
LINE
  5
A5
330
1F
100
AcDbEntity
  8
0
  6
Continuous
 62
     7
370
    25
100
AcDbLine
 10
21.4376473382
 20
144.1714893617
 30
0.0
 11
21.4376473382
 21
94.1714893617
 31
0.0
  0
LINE
  5
A6
330
1F
100
AcDbEntity
  8
0
  6
Continuous
 62
     7
370
    25
100
AcDbLine
 10
-41.5623526618
 20
144.1714893617
 30
0.0
 11
-41.5623526618
 21
94.1714893617
 31
0.0
  0
LINE
  5
A7
330
1F
100
AcDbEntity
  8
0
  6
Continuous
 62
     7
370
    25
100
AcDbLine
 10
209.3293421964
 20
78.1714893617
 30
0.0
 11
221.3293421964
 21
78.1714893617
 31
0.0
  0
LINE
  5
A8
330
1F
100
AcDbEntity
  8
0
  6
Continuous
 62
     7
370
    25
100
AcDbLine
 10
221.3293421964
 20
160.1714893617
 30
0.0
 11
209.3293421964
 21
160.1714893617
 31
0.0
  0
LINE
  5
A9
330
1F
100
AcDbEntity
  8
0
  6
Continuous
 62
     7
370
    25
100
AcDbLine
 10
221.3293421964
 20
88.1714893617
 30
0.0
 11
238.3293421964
 21
94.1714893617
 31
0.0
  0
LINE
  5
AA
330
1F
100
AcDbEntity
  8
0
  6
Continuous
 62
     7
370
    25
100
AcDbLine
 10
238.3293421964
 20
144.1714893617
 30
0.0
 11
221.3293421964
 21
150.1714893617
 31
0.0
  0
LINE
  5
AB
330
1F
100
AcDbEntity
  8
0
  6
Continuous
 62
     7
370
    25
100
AcDbLine
 10
238.3293421964
 20
94.1714893617
 30
0.0
 11
301.3293421964
 21
94.1714893617
 31
0.0
  0
LINE
  5
AC
330
1F
100
AcDbEntity
  8
0
  6
Continuous
 62
     7
370
    25
100
AcDbLine
 10
301.3293421964
 20
144.1714893617
 30
0.0
 11
238.3293421964
 21
144.1714893617
 31
0.0
  0
LINE
  5
AD
330
1F
100
AcDbEntity
  8
0
  6
Continuous
 62
     7
370
    25
100
AcDbLine
 10
209.3293421964
 20
119.1714893617
 30
0.0
 11
209.3293421964
 21
160.1714893617
 31
0.0
  0
LINE
  5
AE
330
1F
100
AcDbEntity
  8
0
  6
Continuous
 62
     7
370
    25
100
AcDbLine
 10
209.3293421964
 20
78.1714893617
 30
0.0
 11
209.3293421964
 21
119.1714893617
 31
0.0
  0
LINE
  5
AF
330
1F
100
AcDbEntity
  8
0
  6
Continuous
 62
     7
370
    25
100
AcDbLine
 10
221.3293421964
 20
119.1714893617
 30
0.0
 11
221.3293421964
 21
160.1714893617
 31
0.0
  0
LINE
  5
B0
330
1F
100
AcDbEntity
  8
0
  6
Continuous
 62
     7
370
    25
100
AcDbLine
 10
221.3293421964
 20
78.1714893617
 30
0.0
 11
221.3293421964
 21
119.1714893617
 31
0.0
  0
LINE
  5
B1
330
1F
100
AcDbEntity
  8
0
  6
Continuous
 62
     7
370
    25
100
AcDbLine
 10
238.3293421964
 20
119.1714893617
 30
0.0
 11
238.3293421964
 21
144.1714893617
 31
0.0
  0
LINE
  5
B2
330
1F
100
AcDbEntity
  8
0
  6
Continuous
 62
     7
370
    25
100
AcDbLine
 10
238.3293421964
 20
94.1714893617
 30
0.0
 11
238.3293421964
 21
119.1714893617
 31
0.0
  0
LINE
  5
B3
330
1F
100
AcDbEntity
  8
0
  6
Continuous
 62
     7
370
    25
100
AcDbLine
 10
301.3293421964
 20
119.1714893617
 30
0.0
 11
301.3293421964
 21
144.1714893617
 31
0.0
  0
LINE
  5
B4
330
1F
100
AcDbEntity
  8
0
  6
Continuous
 62
     7
370
    25
100
AcDbLine
 10
301.3293421964
 20
94.1714893617
 30
0.0
 11
301.3293421964
 21
119.1714893617
 31
0.0
  0
LINE
  5
B5
330
1F
100
AcDbEntity
  8
0
  6
Continuous
 62
     7
370
    25
100
AcDbLine
 10
101.9934680851
 20
25.9174852248
 30
0.0
 11
101.9934680851
 21
13.9174852248
 31
0.0
  0
LINE
  5
B6
330
1F
100
AcDbEntity
  8
0
  6
Continuous
 62
     7
370
    25
100
AcDbLine
 10
183.9934680851
 20
13.9174852248
 30
0.0
 11
183.9934680851
 21
25.9174852248
 31
0.0
  0
LINE
  5
B7
330
1F
100
AcDbEntity
  8
0
  6
Continuous
 62
     7
370
    25
100
AcDbLine
 10
111.9934680851
 20
13.9174852248
 30
0.0
 11
117.9934680851
 21
-3.0825147752
 31
0.0
  0
LINE
  5
B8
330
1F
100
AcDbEntity
  8
0
  6
Continuous
 62
     7
370
    25
100
AcDbLine
 10
167.9934680851
 20
-3.0825147752
 30
0.0
 11
173.9934680851
 21
13.9174852248
 31
0.0
  0
LINE
  5
B9
330
1F
100
AcDbEntity
  8
0
  6
Continuous
 62
     7
370
    25
100
AcDbLine
 10
117.9934680851
 20
-3.0825147752
 30
0.0
 11
117.9934680851
 21
-66.0825147752
 31
0.0
  0
LINE
  5
BA
330
1F
100
AcDbEntity
  8
0
  6
Continuous
 62
     7
370
    25
100
AcDbLine
 10
167.9934680851
 20
-66.0825147752
 30
0.0
 11
167.9934680851
 21
-3.0825147752
 31
0.0
  0
LINE
  5
BB
330
1F
100
AcDbEntity
  8
0
  6
Continuous
 62
     7
370
    25
100
AcDbLine
 10
101.9934680851
 20
25.9174852248
 30
0.0
 11
183.9934680851
 21
25.9174852248
 31
0.0
  0
LINE
  5
BC
330
1F
100
AcDbEntity
  8
0
  6
Continuous
 62
     7
370
    25
100
AcDbLine
 10
101.9934680851
 20
13.9174852248
 30
0.0
 11
183.9934680851
 21
13.9174852248
 31
0.0
  0
LINE
  5
BD
330
1F
100
AcDbEntity
  8
0
  6
Continuous
 62
     7
370
    25
100
AcDbLine
 10
117.9934680851
 20
-3.0825147752
 30
0.0
 11
167.9934680851
 21
-3.0825147752
 31
0.0
  0
LINE
  5
BE
330
1F
100
AcDbEntity
  8
0
  6
Continuous
 62
     7
370
    25
100
AcDbLine
 10
117.9934680851
 20
-66.0825147752
 30
0.0
 11
167.9934680851
 21
-66.0825147752
 31
0.0
  0
LINE
  5
BF
330
1F
100
AcDbEntity
  8
0
  6
Continuous
 62
     7
370
    25
100
AcDbLine
 10
285.9969587421
 20
25.3614831546
 30
0.0
 11
241.4492315273
 21
51.078338677
 31
0.0
  0
LINE
  5
C0
330
1F
100
AcDbEntity
  8
0
  6
Continuous
 62
     7
370
    25
100
AcDbLine
 10
216.4512632114
 20
7.7758955579
 30
0.0
 11
260.9989904262
 21
-17.9409599645
 31
0.0
  0
LINE
  5
C1
330
1F
100
AcDbEntity
  8
0
  6
Continuous
 62
     7
370
    25
100
AcDbLine
 10
314.5024052576
 20
27.3803473312
 30
0.0
 11
306.0171238833
 21
32.2787960022
 31
0.0
  0
LINE
  5
C2
330
1F
100
AcDbEntity
  8
0
  6
Continuous
 62
     7
370
    25
100
AcDbLine
 10
265.0204558453
 20
-38.7372107131
 30
0.0
 11
273.5057372195
 21
-43.635659384
 31
0.0
  0
LINE
  5
C3
330
1F
100
AcDbEntity
  8
0
  6
Continuous
 62
     7
370
    25
100
AcDbLine
 10
296.6581116963
 20
25.0021240263
 30
0.0
 11
284.4118279748
 21
26.2765596686
 31
0.0
  0
LINE
  5
C4
330
1F
100
AcDbEntity
  8
0
  6
Continuous
 62
     7
370
    25
100
AcDbLine
 10
259.4138596589
 20
-17.0258834505
 30
0.0
 11
266.6416305439
 21
-26.993580237
 31
0.0
  0
LWPOLYLINE
  5
C5
330
1F
100
AcDbEntity
  8
0
  6
Continuous
 62
     7
370
    25
100
AcDbPolyline
 90
       99
 70
   128
 43
0.0
 10
211.2725778397
 20
19.2220157197
 10
211.3088985077
 20
20.550881931
 10
211.4177112622
 20
21.9162224967
 10
211.5985689683
 20
23.3124269394
 10
211.8507284428
 20
24.7337579557
 10
212.1731535085
 20
26.1743749915
 10
212.5645192515
 20
27.6283582424
 10
213.0232174661
 20
29.0897329793
 10
213.5473632629
 20
30.5524941001
 10
214.1348028144
 20
32.0106308054
 10
214.7831222054
 20
33.4581512988
 10
215.4896573526
 20
34.8891074082
 10
216.2515049515
 20
36.2976190278
 10
217.0655344068
 20
37.6778982813
 10
217.928400697
 20
39.0242733053
 10
218.8365581193
 20
40.3312115559
 10
219.7862748602
 20
41.5933425436
 10
220.7736483297
 20
42.8054799013
 10
221.7946211986
 20
43.9626426967
 10
222.8449980702
 20
45.0600758996
 10
223.9204627208
 20
46.0932699216
 10
225.0165958355
 20
47.0579791469
 10
226.128893168
 20
47.9502393783
 10
227.2527840501
 20
48.7663841271
 10
228.3836501732
 20
49.5030596795
 10
229.5168445656
 20
50.1572388777
 10
230.6477106886
 20
50.7262335589
 10
231.7716015708
 20
51.207705602
 10
232.8838989033
 20
51.5996765352
 10
233.9800320179
 20
51.9005356657
 10
235.0554966685
 20
52.1090466988
 10
236.1058735402
 20
52.2243528181
 10
237.1268464091
 20
52.2459802058
 10
238.1142198786
 20
52.1738399905
 10
239.0639366194
 20
52.0082286117
 10
239.9720940418
 20
51.7498266022
 10
240.8349603319
 20
51.3996957912
 10
241.6489897873
 20
50.9592749413
 10
242.4108373861
 20
50.4303738363
 10
243.1173725333
 20
49.8151658443
 10
243.7656919244
 20
49.1161789868
 10
244.3531314759
 20
48.3362855508
 10
244.8772772727
 20
47.4786902857
 10
245.3359754873
 20
46.5469172344
 10
245.7273412303
 20
45.5447952523
 10
246.0497662959
 20
44.4764422734
 10
246.3019257705
 20
43.3462483894
 10
246.4827834766
 20
42.1588578094
 10
246.5915962311
 20
40.9191497759
 10
246.627916899
 20
39.6322185152
 10
246.5915962311
 20
38.3033523039
 10
246.4827834766
 20
36.9380117382
 10
246.3019257705
 20
35.5418072955
 10
246.0497662959
 20
34.1204762792
 10
245.7273412303
 20
32.6798592434
 10
245.3359754873
 20
31.2258759925
 10
244.8772772727
 20
29.7645012556
 10
244.3531314759
 20
28.3017401348
 10
243.7656919244
 20
26.8436034295
 10
243.1173725333
 20
25.3960829361
 10
242.4108373861
 20
23.9651268267
 10
241.6489897873
 20
22.5566152071
 10
240.8349603319
 20
21.1763359536
 10
239.9720940418
 20
19.8299609296
 10
239.0639366194
 20
18.523022679
 10
238.1142198786
 20
17.2608916914
 10
237.1268464091
 20
16.0487543336
 10
236.1058735402
 20
14.8915915383
 10
235.0554966685
 20
13.7941583353
 10
233.9800320179
 20
12.7609643133
 10
232.8838989033
 20
11.796255088
 10
231.7716015708
 20
10.9039948566
 10
230.6477106886
 20
10.0878501078
 10
229.5168445656
 20
9.3511745554
 10
228.3836501732
 20
8.6969953573
 10
227.2527840501
 20
8.128000676
 10
226.128893168
 20
7.6465286329
 10
225.0165958355
 20
7.2545576997
 10
223.9204627208
 20
6.9536985692
 10
222.8449980702
 20
6.7451875361
 10
221.7946211986
 20
6.6298814169
 10
220.7736483297
 20
6.6082540291
 10
219.7862748602
 20
6.6803942444
 10
218.8365581193
 20
6.8460056232
 10
217.928400697
 20
7.1044076327
 10
217.0655344068
 20
7.4545384437
 10
216.2515049515
 20
7.8949592936
 10
215.4896573526
 20
8.4238603986
 10
214.7831222054
 20
9.0390683906
 10
214.1348028144
 20
9.7380552481
 10
213.5473632629
 20
10.5179486841
 10
213.0232174661
 20
11.3755439492
 10
212.5645192515
 20
12.3073170005
 10
212.1731535085
 20
13.3094389826
 10
211.8507284428
 20
14.3777919615
 10
211.5985689683
 20
15.5079858455
 10
211.4177112622
 20
16.6953764255
 10
211.3088985077
 20
17.935084459
 10
211.2725778397
 20
19.2220157197
  0
LWPOLYLINE
  5
C6
330
1F
100
AcDbEntity
  8
0
  6
Continuous
 62
     7
370
    25
100
AcDbPolyline
 90
       90
 70
   128
 43
0.0
 10
214.5252690332
 20
21.0997543769
 10
214.5612012914
 20
22.2954955813
 10
214.6688190534
 20
23.5267661655
 10
214.8475861729
 20
24.7874320013
 10
215.0966120411
 20
26.071212515
 10
215.4146560237
 20
27.3717119766
 10
215.8001336414
 20
28.6824513632
 10
216.2511244643
 20
29.9969006372
 10
216.7653816787
 20
31.3085112784
 10
217.3403432811
 20
32.6107489084
 10
217.9731448416
 20
33.897125845
 10
218.6606337748
 20
35.161233423
 10
219.3993850453
 20
36.396773922
 10
220.1857182315
 20
37.5975919414
 10
221.015715861
 20
38.7577050662
 10
221.8852429273
 20
39.8713336711
 10
222.7899674904
 20
40.9329297146
 10
223.725382258
 20
41.9372043785
 10
224.6868270407
 20
42.8791544169
 10
225.6695119691
 20
43.7540870821
 10
226.6685413562
 20
44.5576435036
 10
227.6789380879
 20
45.2858204038
 10
228.6956684184
 20
45.9349900419
 10
229.7136670485
 20
46.5019182875
 10
230.7278623602
 20
46.9837807325
 10
231.7332016834
 20
47.3781767626
 10
232.7246764682
 20
47.6831415164
 10
233.6973472371
 20
47.897155675
 10
234.6463681932
 20
48.0191530306
 10
235.5670113619
 20
48.0485257985
 10
236.4546901452
 20
47.985127645
 10
237.3049821721
 20
47.8292744165
 10
238.1136513305
 20
47.581742566
 10
238.8766688713
 20
47.2437652848
 10
239.5902334794
 20
46.8170263586
 10
240.250790212
 20
46.3036517793
 10
240.8550482086
 20
45.7061991532
 10
241.3999970862
 20
45.0276449593
 10
241.882921937
 20
44.2713697204
 10
242.3014168536
 20
43.4411411618
 10
242.6533969154
 20
42.5410954402
 10
242.9371085754
 20
41.5757165383
 10
243.1511383965
 20
40.5498139252
 10
243.2944200929
 20
39.4684985961
 10
243.3662398422
 20
38.3371576096
 10
243.3662398422
 20
37.1614272495
 10
243.2944200929
 20
35.9471649454
 10
243.1511383965
 20
34.700420091
 10
242.9371085754
 20
33.4274039064
 10
242.6533969154
 20
32.1344584942
 10
242.3014168536
 20
30.8280252435
 10
241.8829219369
 20
29.514612739
 10
241.3999970862
 20
28.2007643357
 10
240.8550482086
 20
26.8930255603
 10
240.250790212
 20
25.5979115015
 10
239.5902334794
 20
24.3218743525
 10
238.8766688713
 20
23.0712712662
 10
238.1136513305
 20
21.8523326841
 10
237.3049821721
 20
20.6711312971
 10
236.4546901452
 20
19.5335517911
 10
235.5670113619
 20
18.4452615298
 10
234.6463681932
 20
17.4116823206
 10
233.6973472371
 20
16.4379634032
 10
232.7246764682
 20
15.5289557963
 10
231.7332016834
 20
14.6891881299
 10
230.7278623602
 20
13.9228440844
 10
229.7136670485
 20
13.2337415473
 10
228.6956684184
 20
12.6253135927
 10
227.6789380879
 20
12.1005913781
 10
226.6685413562
 20
11.6621890433
 10
225.6695119691
 20
11.3122906864
 10
224.6868270407
 20
11.0526394837
 10
223.725382258
 20
10.8845290042
 10
222.7899674904
 20
10.808796766
 10
221.8852429273
 20
10.8258200633
 10
221.015715861
 20
10.9355140868
 10
220.1857182315
 20
11.1373323465
 10
219.3993850453
 20
11.4302693939
 10
218.6606337748
 20
11.8128658314
 10
217.9731448416
 20
12.2832155827
 10
217.3403432811
 20
12.8389753892
 10
216.7653816787
 20
13.4773764833
 10
216.2511244643
 20
14.195238383
 10
215.8001336414
 20
14.9889847363
 10
215.4146560237
 20
15.8546611389
 10
215.0966120411
 20
16.7879548345
 10
214.8475861729
 20
17.7842162008
 10
214.6688190534
 20
18.8384819138
 10
214.5612012914
 20
19.9454996747
 10
214.5252690332
 20
21.0997543769
  0
LWPOLYLINE
  5
C7
330
1F
100
AcDbEntity
  8
0
  6
Continuous
 62
     7
370
    25
100
AcDbPolyline
 90
       51
 70
   128
 43
0.0
 10
285.9969587421
 20
25.3614831546
 10
286.196717002
 20
25.2424194189
 10
286.9585646009
 20
24.7135183139
 10
287.6650997481
 20
24.0983103219
 10
288.3134191392
 20
23.3993234644
 10
288.9008586906
 20
22.6194300284
 10
289.4250044874
 20
21.7618347633
 10
289.883702702
 20
20.830061712
 10
290.275068445
 20
19.8279397299
 10
290.5974935107
 20
18.759586751
 10
290.8496529852
 20
17.629392867
 10
291.0305106913
 20
16.442002287
 10
291.1393234458
 20
15.2022942535
 10
291.1756441138
 20
13.9153629928
 10
291.1393234458
 20
12.5864967815
 10
291.0305106913
 20
11.2211562158
 10
290.8496529852
 20
9.8249517731
 10
290.5974935107
 20
8.4036207568
 10
290.275068445
 20
6.963003721
 10
289.883702702
 20
5.5090204701
 10
289.4250044874
 20
4.0476457332
 10
288.9008586906
 20
2.5848846124
 10
288.3134191392
 20
1.1267479071
 10
287.6650997481
 20
-0.3207725863
 10
286.9585646009
 20
-1.7517286957
 10
286.196717002
 20
-3.1602403153
 10
285.3826875467
 20
-4.5405195688
 10
284.5198212565
 20
-5.8868945928
 10
283.6116638342
 20
-7.1938328434
 10
282.6619470934
 20
-8.4559638311
 10
281.6745736238
 20
-9.6681011888
 10
280.653600755
 20
-10.8252639842
 10
279.6032238833
 20
-11.9226971871
 10
278.5277592327
 20
-12.9558912091
 10
277.431626118
 20
-13.9206004344
 10
276.3193287855
 20
-14.8128606658
 10
275.1954379034
 20
-15.6290054146
 10
274.0645717804
 20
-16.365680967
 10
272.9313773879
 20
-17.0198601652
 10
271.8005112649
 20
-17.5888548464
 10
270.6766203828
 20
-18.0703268896
 10
269.5643230502
 20
-18.4622978227
 10
268.4681899356
 20
-18.7631569532
 10
267.392725285
 20
-18.9716679863
 10
266.3423484133
 20
-19.0869741056
 10
265.3213755444
 20
-19.1086014933
 10
264.3340020749
 20
-19.036461278
 10
263.3842853341
 20
-18.8708498992
 10
262.4761279118
 20
-18.6124478897
 10
261.6132616216
 20
-18.2623170787
 10
260.9989904262
 20
-17.9409599645
  0
LWPOLYLINE
  5
C8
330
1F
100
AcDbEntity
  8
0
  6
Continuous
 62
     7
370
    25
100
AcDbPolyline
 90
       65
 70
   128
 43
0.0
 10
314.5024052576
 20
27.3803473312
 10
315.2562551694
 20
26.9119093923
 10
316.2127552758
 20
26.2124993539
 10
317.1140410944
 20
25.4277142786
 10
317.9578718867
 20
24.5595052656
 10
318.7421497563
 20
23.6100308194
 10
319.464924865
 20
22.581651483
 10
320.1244002799
 20
21.4769239696
 10
320.7189364413
 20
20.2985948057
 10
321.2470552385
 20
19.0495935033
 10
321.707443685
 20
17.7330252765
 10
322.0989571826
 20
16.3521633214
 10
322.420622367
 20
14.9104406782
 10
322.671639528
 20
13.4114416967
 10
322.8513845973
 20
11.8588931245
 10
322.9594107003
 20
10.256654842
 10
322.9954492672
 20
8.608710266
 10
322.9594107003
 20
6.9191564464
 10
322.8513845973
 20
5.1921938801
 10
322.671639528
 20
3.4321160683
 10
322.420622367
 20
1.6432988417
 10
322.0989571826
 20
-0.1698105182
 10
321.707443685
 20
-2.002704336
 10
321.2470552385
 20
-3.8508257487
 10
320.7189364413
 20
-5.7095800353
 10
320.1244002799
 20
-7.5743460399
 10
319.464924865
 20
-9.4404876602
 10
318.7421497563
 20
-11.3033653743
 10
317.9578718867
 20
-13.1583477746
 10
317.1140410944
 20
-15.0008230825
 10
316.2127552758
 20
-16.8262106141
 10
315.2562551694
 20
-18.6299721685
 10
314.2469187852
 20
-20.4076233102
 10
313.1872554925
 20
-22.1547445184
 10
312.0798997812
 20
-23.8669921745
 10
310.9276047121
 20
-25.5401093609
 10
309.7332350723
 20
-27.1699364449
 10
308.4997602529
 20
-28.7524214193
 10
307.2302468666
 20
-30.2836299773
 10
305.9278511237
 20
-31.7597552932
 10
304.5958109853
 20
-33.1771274867
 10
303.2374381131
 20
-34.5322227473
 10
301.8561096359
 20
-35.8216720947
 10
300.4552597542
 20
-37.0422697546
 10
299.0383712013
 20
-38.190981129
 10
297.6089665855
 20
-39.2649503403
 10
296.1705996318
 20
-40.2615073319
 10
294.7268463472
 20
-41.178174506
 10
293.2812961299
 20
-42.0126728837
 10
291.8375428453
 20
-42.7629277705
 10
290.3991758916
 20
-43.4270739145
 10
288.9697712758
 20
-44.0034601439
 10
287.5528827229
 20
-44.4906534715
 10
286.1520328412
 20
-44.887442658
 10
284.770704364
 20
-45.192841223
 10
283.4123314918
 20
-45.4060898975
 10
282.0802913534
 20
-45.5266585118
 10
280.7778956105
 20
-45.5542473132
 10
279.5083822242
 20
-45.4887877117
 10
278.2749074048
 20
-45.3304424501
 10
277.080537765
 20
-45.0796051997
 10
275.9282426959
 20
-44.7368995814
 10
274.8208869846
 20
-44.3031776154
 10
273.7612236919
 20
-43.7795176029
 10
273.5057372195
 20
-43.635659384
  0
ARC
  5
C9
330
1F
100
AcDbEntity
  8
0
  6
Continuous
 62
     7
370
    25
100
AcDbCircle
 10
299.1641428239
 20
-20.0461263305
 30
0.0
 40
42.63680708137444
100
AcDbArc
 50
173.8790329973
 51
179.8917524128
  0
LWPOLYLINE
  5
CA
330
1F
100
AcDbEntity
  8
0
  6
Continuous
 62
     7
370
    25
100
AcDbPolyline
 90
      100
 70
   128
 43
0.0
 10
281.7683768819
 20
27.802591502
 10
281.9138945174
 20
27.9080869584
 10
283.352261471
 20
28.90464395
 10
284.7960147556
 20
29.8213111242
 10
286.241564973
 20
30.6558095019
 10
287.6853182576
 20
31.4060643887
 10
289.1236852112
 20
32.0702105327
 10
290.553089827
 20
32.646596762
 10
291.9699783799
 20
33.1337900896
 10
293.3708282617
 20
33.5305792762
 10
294.7521567388
 20
33.8359778412
 10
296.1105296111
 20
34.0492265157
 10
297.4425697495
 20
34.16979513
 10
298.7449654923
 20
34.1973839314
 10
300.0144788786
 20
34.1319243298
 10
301.2479536981
 20
33.9735790682
 10
302.4423233379
 20
33.7227418178
 10
303.594618407
 20
33.3800361996
 10
304.7019741183
 20
32.9463142336
 10
305.761637411
 20
32.422654221
 10
306.7709737951
 20
31.8103580632
 10
307.7274739015
 20
31.1109480248
 10
308.6287597201
 20
30.3261629495
 10
309.4725905124
 20
29.4579539365
 10
310.2568683821
 20
28.5084794903
 10
310.9796434908
 20
27.480100154
 10
311.6391189057
 20
26.3753726405
 10
312.233655067
 20
25.1970434766
 10
312.7617738642
 20
23.9480421743
 10
313.2221623107
 20
22.6314739475
 10
313.6136758084
 20
21.2506119923
 10
313.9353409928
 20
19.8088893491
 10
314.1863581538
 20
18.3098903676
 10
314.3661032231
 20
16.7573417954
 10
314.4741293261
 20
15.1551035129
 10
314.510167893
 20
13.5071589369
 10
314.4741293261
 20
11.8176051173
 10
314.3661032231
 20
10.0906425511
 10
314.1863581538
 20
8.3305647393
 10
313.9353409928
 20
6.5417475126
 10
313.6136758084
 20
4.7286381527
 10
313.2221623107
 20
2.8957443349
 10
312.7617738642
 20
1.0476229222
 10
312.233655067
 20
-0.8111313644
 10
311.6391189057
 20
-2.6758973689
 10
310.9796434908
 20
-4.5420389893
 10
310.2568683821
 20
-6.4049167034
 10
309.4725905124
 20
-8.2598991036
 10
308.6287597201
 20
-10.1023744115
 10
307.7274739015
 20
-11.9277619432
 10
306.7709737951
 20
-13.7315234976
 10
305.761637411
 20
-15.5091746393
 10
304.7019741183
 20
-17.2562958475
 10
303.594618407
 20
-18.9685435035
 10
302.4423233379
 20
-20.64166069
 10
301.2479536981
 20
-22.2714877739
 10
300.0144788786
 20
-23.8539727484
 10
298.7449654923
 20
-25.3851813064
 10
297.4425697495
 20
-26.8613066222
 10
296.1105296111
 20
-28.2786788158
 10
294.7521567388
 20
-29.6337740764
 10
293.3708282617
 20
-30.9232234238
 10
291.9699783799
 20
-32.1438210837
 10
290.553089827
 20
-33.2925324581
 10
289.1236852112
 20
-34.3665016694
 10
287.6853182576
 20
-35.3630586609
 10
286.241564973
 20
-36.2797258351
 10
284.7960147556
 20
-37.1142242128
 10
283.352261471
 20
-37.8644790996
 10
281.9138945174
 20
-38.5286252436
 10
280.4844899016
 20
-39.1050114729
 10
279.0676013487
 20
-39.5922048005
 10
277.6667514669
 20
-39.9889939871
 10
276.2854229898
 20
-40.2943925521
 10
274.9270501175
 20
-40.5076412266
 10
273.5950099791
 20
-40.6282098409
 10
272.2926142363
 20
-40.6557986423
 10
271.02310085
 20
-40.5903390407
 10
269.7896260305
 20
-40.4319937791
 10
268.5952563907
 20
-40.1811565287
 10
267.4429613216
 20
-39.8384509105
 10
266.3356056103
 20
-39.4047289445
 10
265.2759423177
 20
-38.8810689319
 10
264.2666059335
 20
-38.2687727741
 10
263.3101058271
 20
-37.5693627357
 10
262.4088200085
 20
-36.7845776604
 10
261.5649892162
 20
-35.9163686474
 10
260.7807113465
 20
-34.9668942012
 10
260.0579362378
 20
-33.9385148649
 10
259.3984608229
 20
-32.8337873514
 10
258.8039246616
 20
-31.6554581875
 10
258.2758058644
 20
-30.4064568852
 10
257.8154174179
 20
-29.0898886584
 10
257.4239039203
 20
-27.7090267032
 10
257.1022387358
 20
-26.26730406
 10
256.8512215748
 20
-24.7683050785
 10
256.6714765055
 20
-23.2157565063
 10
256.5634504025
 20
-21.6135182238
 10
256.5274118357
 20
-19.9655736478
 10
256.5274118357
 20
-19.9655736478
  0
LWPOLYLINE
  5
CB
330
1F
100
AcDbEntity
  8
0
  6
Continuous
 62
     7
370
    25
100
AcDbPolyline
 90
       66
 70
   128
 43
0.0
 10
296.6581116963
 20
25.0021240263
 10
296.8383824186
 20
24.9820162369
 10
297.8915603216
 20
24.808417275
 10
298.9043808191
 20
24.5433654092
 10
299.8735403012
 20
24.1877251836
 10
300.795877571
 20
23.7426566227
 10
301.668384156
 20
23.2096114478
 10
302.4882141212
 20
22.5903283412
 10
303.2526933517
 20
21.8868272759
 10
303.9593282749
 20
21.101402926
 10
304.6058139948
 20
20.2366171825
 10
305.1900418093
 20
19.2952907969
 10
305.7101060886
 20
18.28049418
 10
306.1643104912
 20
17.1955373875
 10
306.5511734968
 20
16.0439593231
 10
306.8694332385
 20
14.8295161949
 10
307.1180516194
 20
13.556169264
 10
307.2962176979
 20
12.2280719235
 10
307.4033503332
 20
10.8495561508
 10
307.4391000811
 20
9.4251183778
 10
307.4033503332
 20
7.9594048245
 10
307.2962176979
 20
6.4571963439
 10
307.1180516194
 20
4.9233928278
 10
306.8694332385
 20
3.3629972243
 10
306.5511734968
 20
1.7810992198
 10
306.1643104912
 20
0.1828586366
 10
305.7101060886
 20
-1.4265113966
 10
305.1900418093
 20
-3.0417614494
 10
304.6058139948
 20
-4.6576229118
 10
303.9593282749
 20
-6.2688251795
 10
303.2526933517
 20
-7.8701128457
 10
302.4882141212
 20
-9.4562628427
 10
301.668384156
 20
-11.0221014791
 10
300.795877571
 20
-12.5625213146
 10
299.8735403012
 20
-14.07249782
 10
298.9043808191
 20
-15.5471057656
 10
297.8915603216
 20
-16.981535287
 10
296.8383824186
 20
-18.371107573
 10
295.7482823574
 20
-19.7112901279
 10
294.624815818
 20
-20.9977115546
 10
293.4716473146
 20
-22.2261758138
 10
292.2925382433
 20
-23.3926759104
 10
291.0913346126
 20
-24.4934069637
 10
289.8719544993
 20
-25.5247786176
 10
288.6383752677
 20
-26.4834267523
 10
287.394620597
 20
-27.3662244567
 10
286.1447473563
 20
-28.1702922283
 10
284.8928323723
 20
-28.8930073651
 10
283.6429591316
 20
-29.5320125206
 10
282.3992044609
 20
-30.0852233927
 10
281.1656252293
 20
-30.5508355225
 10
279.946245116
 20
-30.9273301802
 10
278.7450414853
 20
-31.2134793183
 10
277.565932414
 20
-31.4083495779
 10
276.4127639106
 20
-31.5113053326
 10
275.2892973712
 20
-31.5220107622
 10
274.19919731
 20
-31.4404309479
 10
273.146019407
 20
-31.2668319859
 10
272.1331989095
 20
-31.0017801201
 10
271.1640394274
 20
-30.6461398945
 10
270.2417021577
 20
-30.2010713337
 10
269.3691955726
 20
-29.6680261587
 10
268.5493656074
 20
-29.0487430521
 10
267.784886377
 20
-28.3452419868
 10
267.0782514537
 20
-27.5598176369
 10
266.6416305439
 20
-26.993580237
  0
ENDSEC
  0
SECTION
  2
OBJECTS
  0
DICTIONARY
  5
C
330
0
100
AcDbDictionary
281
     1
  3
ACAD_GROUP
350
D
  3
ACAD_LAYOUT
350
1A
  3
ACAD_MLINESTYLE
350
17
  3
ACAD_PLOTSETTINGS
350
19
  3
ACAD_PLOTSTYLENAME
350
E
  3
ACAD_SCALELIST
350
47
  0
DICTIONARY
  5
D
102
{ACAD_REACTORS
330
C
102
}
330
C
100
AcDbDictionary
281
     1
  0
DICTIONARY
  5
1A
102
{ACAD_REACTORS
330
C
102
}
330
C
100
AcDbDictionary
281
     1
  3
Layout1
350
1E
  3
Layout2
350
26
  3
Model
350
22
  0
DICTIONARY
  5
17
102
{ACAD_REACTORS
330
C
102
}
330
C
100
AcDbDictionary
281
     1
  3
Standard
350
18
  0
DICTIONARY
  5
19
102
{ACAD_REACTORS
330
C
102
}
330
C
100
AcDbDictionary
281
     1
  0
ACDBDICTIONARYWDFLT
  5
E
102
{ACAD_REACTORS
330
C
102
}
330
C
100
AcDbDictionary
281
     1
  3
Normal
350
F
100
AcDbDictionaryWithDefault
340
F
  0
DICTIONARY
  5
47
102
{ACAD_REACTORS
330
C
102
}
330
C
100
AcDbDictionary
281
     1
  3
A0
350
48
  3
A1
350
49
  3
A2
350
4A
  3
A3
350
4B
  3
A4
350
4C
  3
A5
350
4D
  3
A6
350
4E
  3
A7
350
4F
  3
A8
350
50
  3
A9
350
51
  3
B0
350
52
  3
B1
350
53
  3
B2
350
54
  3
B3
350
55
  3
B4
350
56
  3
B5
350
57
  3
B6
350
58
  3
B7
350
59
  3
B8
350
5A
  3
B9
350
5B
  3
C0
350
5C
  3
C1
350
5D
  3
C2
350
5E
  3
C3
350
5F
  3
C4
350
60
  3
C5
350
61
  3
C6
350
62
  3
C7
350
63
  3
C8
350
64
  3
C9
350
65
  3
D0
350
66
  3
D1
350
67
  3
D2
350
68
  0
LAYOUT
  5
1E
102
{ACAD_REACTORS
330
1A
102
}
330
1A
100
AcDbPlotSettings
  1

  2
none_device
  4

  6

 40
0.0
 41
0.0
 42
0.0
 43
0.0
 44
0.0
 45
0.0
 46
0.0
 47
0.0
 48
0.0
 49
0.0
140
0.0
141
0.0
142
1.0
143
1.0
 70
   688
 72
     1
 73
     0
 74
     5
  7

 75
    16
147
1.0
148
0.0
149
0.0
100
AcDbLayout
  1
Layout1
 70
     1
 71
     1
 10
0.0
 20
0.0
 11
420.0
 21
297.0
 12
0.0
 22
0.0
 32
0.0
 14
1.0000000000E+20
 24
1.0000000000E+20
 34
1.0000000000E+20
 15
-1.0000000000E+20
 25
-1.0000000000E+20
 35
-1.0000000000E+20
146
0.0
 13
0.0
 23
0.0
 33
0.0
 16
1.0
 26
0.0
 36
0.0
 17
0.0
 27
1.0
 37
0.0
 76
     0
330
1B
  0
LAYOUT
  5
26
102
{ACAD_REACTORS
330
1A
102
}
330
1A
100
AcDbPlotSettings
  1

  2
none_device
  4

  6

 40
0.0
 41
0.0
 42
0.0
 43
0.0
 44
0.0
 45
0.0
 46
0.0
 47
0.0
 48
0.0
 49
0.0
140
0.0
141
0.0
142
1.0
143
1.0
 70
   688
 72
     1
 73
     0
 74
     5
  7

 75
    16
147
1.0
148
0.0
149
0.0
100
AcDbLayout
  1
Layout2
 70
     1
 71
     2
 10
0.0
 20
0.0
 11
0.0
 21
0.0
 12
0.0
 22
0.0
 32
0.0
 14
0.0
 24
0.0
 34
0.0
 15
0.0
 25
0.0
 35
0.0
146
0.0
 13
0.0
 23
0.0
 33
0.0
 16
1.0
 26
0.0
 36
0.0
 17
0.0
 27
1.0
 37
0.0
 76
     0
330
23
  0
LAYOUT
  5
22
102
{ACAD_REACTORS
330
1A
102
}
330
1A
100
AcDbPlotSettings
  1

  2
none_device
  4
Letter_(8.50_x_11.00_Inches)
  6

 40
6.35
 41
6.35
 42
6.35000508
 43
6.35000508
 44
215.9
 45
279.4
 46
0.0
 47
0.0
 48
0.0
 49
0.0
140
0.0
141
0.0
142
1.0
143
1.0
 70
  1712
 72
     1
 73
     0
 74
     0
  7

 75
     0
147
1.0
148
0.0
149
0.0
100
AcDbLayout
  1
Model
 70
     1
 71
     0
 10
0.0
 20
0.0
 11
279.4
 21
215.9
 12
0.0
 22
0.0
 32
0.0
 14
0.0
 24
0.0
 34
0.0
 15
279.4
 25
215.9
 35
0.0
146
0.0
 13
0.0
 23
0.0
 33
0.0
 16
1.0
 26
0.0
 36
0.0
 17
0.0
 27
1.0
 37
0.0
 76
     0
330
1F
331
29
  0
MLINESTYLE
  5
18
102
{ACAD_REACTORS
330
17
102
}
330
17
100
AcDbMlineStyle
  2
Standard
 70
     0
  3

 62
   256
 51
90.0
 52
90.0
 71
     2
 49
0.5
 62
   256
  6
BYLAYER
 49
-0.5
 62
   256
  6
BYLAYER
  0
ACDBPLACEHOLDER
  5
F
102
{ACAD_REACTORS
330
E
102
}
330
E
  0
SCALE
  5
48
102
{ACAD_REACTORS
330
47
102
}
330
47
100
AcDbScale
 70
     0
300
1:1
140
1.0
141
1.0
290
     1
  0
SCALE
  5
49
102
{ACAD_REACTORS
330
47
102
}
330
47
100
AcDbScale
 70
     0
300
1:2
140
1.0
141
2.0
290
     0
  0
SCALE
  5
4A
102
{ACAD_REACTORS
330
47
102
}
330
47
100
AcDbScale
 70
     0
300
1:4
140
1.0
141
4.0
290
     0
  0
SCALE
  5
4B
102
{ACAD_REACTORS
330
47
102
}
330
47
100
AcDbScale
 70
     0
300
1:5
140
1.0
141
5.0
290
     0
  0
SCALE
  5
4C
102
{ACAD_REACTORS
330
47
102
}
330
47
100
AcDbScale
 70
     0
300
1:8
140
1.0
141
8.0
290
     0
  0
SCALE
  5
4D
102
{ACAD_REACTORS
330
47
102
}
330
47
100
AcDbScale
 70
     0
300
1:10
140
1.0
141
10.0
290
     0
  0
SCALE
  5
4E
102
{ACAD_REACTORS
330
47
102
}
330
47
100
AcDbScale
 70
     0
300
1:16
140
1.0
141
16.0
290
     0
  0
SCALE
  5
4F
102
{ACAD_REACTORS
330
47
102
}
330
47
100
AcDbScale
 70
     0
300
1:20
140
1.0
141
20.0
290
     0
  0
SCALE
  5
50
102
{ACAD_REACTORS
330
47
102
}
330
47
100
AcDbScale
 70
     0
300
1:30
140
1.0
141
30.0
290
     0
  0
SCALE
  5
51
102
{ACAD_REACTORS
330
47
102
}
330
47
100
AcDbScale
 70
     0
300
1:40
140
1.0
141
40.0
290
     0
  0
SCALE
  5
52
102
{ACAD_REACTORS
330
47
102
}
330
47
100
AcDbScale
 70
     0
300
1:50
140
1.0
141
50.0
290
     0
  0
SCALE
  5
53
102
{ACAD_REACTORS
330
47
102
}
330
47
100
AcDbScale
 70
     0
300
1:100
140
1.0
141
100.0
290
     0
  0
SCALE
  5
54
102
{ACAD_REACTORS
330
47
102
}
330
47
100
AcDbScale
 70
     0
300
2:1
140
2.0
141
1.0
290
     0
  0
SCALE
  5
55
102
{ACAD_REACTORS
330
47
102
}
330
47
100
AcDbScale
 70
     0
300
4:1
140
4.0
141
1.0
290
     0
  0
SCALE
  5
56
102
{ACAD_REACTORS
330
47
102
}
330
47
100
AcDbScale
 70
     0
300
8:1
140
8.0
141
1.0
290
     0
  0
SCALE
  5
57
102
{ACAD_REACTORS
330
47
102
}
330
47
100
AcDbScale
 70
     0
300
10:1
140
10.0
141
1.0
290
     0
  0
SCALE
  5
58
102
{ACAD_REACTORS
330
47
102
}
330
47
100
AcDbScale
 70
     0
300
100:1
140
100.0
141
1.0
290
     0
  0
SCALE
  5
59
102
{ACAD_REACTORS
330
47
102
}
330
47
100
AcDbScale
 70
     0
300
1/128" = 1'-0"
140
0.0078125
141
12.0
290
     0
  0
SCALE
  5
5A
102
{ACAD_REACTORS
330
47
102
}
330
47
100
AcDbScale
 70
     0
300
1/64" = 1'-0"
140
0.015625
141
12.0
290
     0
  0
SCALE
  5
5B
102
{ACAD_REACTORS
330
47
102
}
330
47
100
AcDbScale
 70
     0
300
1/32" = 1'-0"
140
0.03125
141
12.0
290
     0
  0
SCALE
  5
5C
102
{ACAD_REACTORS
330
47
102
}
330
47
100
AcDbScale
 70
     0
300
1/16" = 1'-0"
140
0.0625
141
12.0
290
     0
  0
SCALE
  5
5D
102
{ACAD_REACTORS
330
47
102
}
330
47
100
AcDbScale
 70
     0
300
3/32" = 1'-0"
140
0.09375
141
12.0
290
     0
  0
SCALE
  5
5E
102
{ACAD_REACTORS
330
47
102
}
330
47
100
AcDbScale
 70
     0
300
1/8" = 1'-0"
140
0.125
141
12.0
290
     0
  0
SCALE
  5
5F
102
{ACAD_REACTORS
330
47
102
}
330
47
100
AcDbScale
 70
     0
300
3/16" = 1'-0"
140
0.1875
141
12.0
290
     0
  0
SCALE
  5
60
102
{ACAD_REACTORS
330
47
102
}
330
47
100
AcDbScale
 70
     0
300
1/4" = 1'-0"
140
0.25
141
12.0
290
     0
  0
SCALE
  5
61
102
{ACAD_REACTORS
330
47
102
}
330
47
100
AcDbScale
 70
     0
300
3/8" = 1'-0"
140
0.375
141
12.0
290
     0
  0
SCALE
  5
62
102
{ACAD_REACTORS
330
47
102
}
330
47
100
AcDbScale
 70
     0
300
1/2" = 1'-0"
140
0.5
141
12.0
290
     0
  0
SCALE
  5
63
102
{ACAD_REACTORS
330
47
102
}
330
47
100
AcDbScale
 70
     0
300
3/4" = 1'-0"
140
0.75
141
12.0
290
     0
  0
SCALE
  5
64
102
{ACAD_REACTORS
330
47
102
}
330
47
100
AcDbScale
 70
     0
300
1" = 1'-0"
140
1.0
141
12.0
290
     0
  0
SCALE
  5
65
102
{ACAD_REACTORS
330
47
102
}
330
47
100
AcDbScale
 70
     0
300
1-1/2" = 1'-0"
140
1.5
141
12.0
290
     0
  0
SCALE
  5
66
102
{ACAD_REACTORS
330
47
102
}
330
47
100
AcDbScale
 70
     0
300
3" = 1'-0"
140
3.0
141
12.0
290
     0
  0
SCALE
  5
67
102
{ACAD_REACTORS
330
47
102
}
330
47
100
AcDbScale
 70
     0
300
6" = 1'-0"
140
6.0
141
12.0
290
     0
  0
SCALE
  5
68
102
{ACAD_REACTORS
330
47
102
}
330
47
100
AcDbScale
 70
     0
300
1'-0" = 1'-0"
140
12.0
141
12.0
290
     0
  0
ENDSEC
  0
EOF
